ISO-10303-21;
HEADER;
FILE_DESCRIPTION (( 'STEP AP214' ),
    '1' );
FILE_NAME ('am-0701a 6IN HD Roller Axle REV3.STEP',
    '2018-06-19T13:32:28',
    ( '' ),
    ( '' ),
    'SwSTEP 2.0',
    'SolidWorks 2017',
    '' );
FILE_SCHEMA (( 'AUTOMOTIVE_DESIGN' ));
ENDSEC;

DATA;
#1 = EDGE_CURVE ( 'NONE', #211, #131, #145, .T. ) ;
#2 = VECTOR ( 'NONE', #216, 39.37007874015748100 ) ;
#3 = ORIENTED_EDGE ( 'NONE', *, *, #17, .T. ) ;
#4 = ORIENTED_EDGE ( 'NONE', *, *, #12, .T. ) ;
#5 = VECTOR ( 'NONE', #176, 39.37007874015748100 ) ;
#6 = AXIS2_PLACEMENT_3D ( 'NONE', #202, #32, #40 ) ;
#7 = DIRECTION ( 'NONE',  ( 1.000000000000000000, 0.0000000000000000000, 0.0000000000000000000 ) ) ;
#8 = ADVANCED_FACE ( 'NONE', ( #221 ), #14, .T. ) ;
#9 = AXIS2_PLACEMENT_3D ( 'NONE', #185, #30, #52 ) ;
#10 = COLOUR_RGB ( '',0.6470588235294118000, 0.5176470588235293500, 0.0000000000000000000 ) ;
#11 = DIRECTION ( 'NONE',  ( 0.0000000000000000000, 0.0000000000000000000, -1.000000000000000000 ) ) ;
#12 = EDGE_CURVE ( 'NONE', #94, #210, #171, .T. ) ;
#13 =( LENGTH_UNIT ( ) NAMED_UNIT ( * ) SI_UNIT ( $, .METRE. ) );
#14 = CYLINDRICAL_SURFACE ( 'NONE', #151, 0.1250000000000000000 ) ;
#15 = DIRECTION ( 'NONE',  ( 1.000000000000000000, 0.0000000000000000000, 0.0000000000000000000 ) ) ;
#16 = PRESENTATION_LAYER_ASSIGNMENT (  '', '', ( #132 ) ) ;
#17 = EDGE_CURVE ( 'NONE', #86, #211, #111, .T. ) ;
#18 = SURFACE_SIDE_STYLE ('',( #160 ) ) ;
#19 = ORIENTED_EDGE ( 'NONE', *, *, #57, .T. ) ;
#20 = CARTESIAN_POINT ( 'NONE',  ( 0.0000000000000000000, 0.0000000000000000000, 0.0000000000000000000 ) ) ;
#21 = CARTESIAN_POINT ( 'NONE',  ( 1.746000000000000000, 1.175660927181458900E-017, -0.09600000000000000200 ) ) ;
#22 = PLANE ( 'NONE',  #100 ) ;
#23 = ORIENTED_EDGE ( 'NONE', *, *, #12, .F. ) ;
#24 = DIRECTION ( 'NONE',  ( 0.0000000000000000000, 0.0000000000000000000, -1.000000000000000000 ) ) ;
#25 = FACE_OUTER_BOUND ( 'NONE', #121, .T. ) ;
#26 = VERTEX_POINT ( 'NONE', #192 ) ;
#27 = CIRCLE ( 'NONE', #195, 0.1250000000000000000 ) ;
#28 = ADVANCED_FACE ( 'NONE', ( #162, #65 ), #53, .T. ) ;
#29 = FILL_AREA_STYLE ('',( #214 ) ) ;
#30 = DIRECTION ( 'NONE',  ( -1.000000000000000000, -0.0000000000000000000, -0.0000000000000000000 ) ) ;
#31 = VECTOR ( 'NONE', #80, 39.37007874015748100 ) ;
#32 = DIRECTION ( 'NONE',  ( 1.000000000000000000, 0.0000000000000000000, 0.0000000000000000000 ) ) ;
#33 = CARTESIAN_POINT ( 'NONE',  ( 1.746000000000000000, 0.0000000000000000000, 0.1250000000000000000 ) ) ;
#34 = AXIS2_PLACEMENT_3D ( 'NONE', #95, #7, #81 ) ;
#35 = SURFACE_STYLE_FILL_AREA ( #112 ) ;
#36 = PRODUCT_DEFINITION ( 'UNKNOWN', '', #44, #169 ) ;
#37 = AXIS2_PLACEMENT_3D ( 'NONE', #85, #120, #217 ) ;
#38 = EDGE_CURVE ( 'NONE', #210, #26, #98, .T. ) ;
#39 = ORIENTED_EDGE ( 'NONE', *, *, #179, .F. ) ;
#40 = DIRECTION ( 'NONE',  ( 0.0000000000000000000, 0.0000000000000000000, -1.000000000000000000 ) ) ;
#41 = VERTEX_POINT ( 'NONE', #88 ) ;
#42 = CARTESIAN_POINT ( 'NONE',  ( 1.746000000000000000, 0.0000000000000000000, 0.0000000000000000000 ) ) ;
#43 = EDGE_LOOP ( 'NONE', ( #191, #39 ) ) ;
#44 = PRODUCT_DEFINITION_FORMATION_WITH_SPECIFIED_SOURCE ( 'ANY', '', #78, .NOT_KNOWN. ) ;
#45 = PRODUCT_CONTEXT ( 'NONE', #70, 'mechanical' ) ;
#46 = VECTOR ( 'NONE', #204, 39.37007874015748100 ) ;
#47 = ORIENTED_EDGE ( 'NONE', *, *, #177, .F. ) ;
#48 = DIRECTION ( 'NONE',  ( 1.000000000000000000, 0.0000000000000000000, 0.0000000000000000000 ) ) ;
#49 = UNCERTAINTY_MEASURE_WITH_UNIT (LENGTH_MEASURE( 1.000000000000000100E-005 ), #142, 'distance_accuracy_value', 'NONE');
#50 =( NAMED_UNIT ( * ) SI_UNIT ( $, .STERADIAN. ) SOLID_ANGLE_UNIT ( ) );
#51 = ORIENTED_EDGE ( 'NONE', *, *, #146, .F. ) ;
#52 = DIRECTION ( 'NONE',  ( 0.0000000000000000000, 0.0000000000000000000, 1.000000000000000000 ) ) ;
#53 = PLANE ( 'NONE',  #37 ) ;
#54 = CLOSED_SHELL ( 'NONE', ( #84, #8, #28, #150, #99, #170 ) ) ;
#55 = EDGE_LOOP ( 'NONE', ( #73, #96 ) ) ;
#56 = CYLINDRICAL_SURFACE ( 'NONE', #9, 0.1250000000000000000 ) ;
#57 = EDGE_CURVE ( 'NONE', #108, #26, #183, .T. ) ;
#58 = CARTESIAN_POINT ( 'NONE',  ( 0.0000000000000000000, 1.530808498934191500E-017, -0.1250000000000000000 ) ) ;
#59 = FACE_OUTER_BOUND ( 'NONE', #168, .T. ) ;
#60 = DIRECTION ( 'NONE',  ( -1.000000000000000000, -0.0000000000000000000, -0.0000000000000000000 ) ) ;
#61 = FILL_AREA_STYLE_COLOUR ( '', #141 ) ;
#62 = CIRCLE ( 'NONE', #6, 0.09600000000000000200 ) ;
#63 = CARTESIAN_POINT ( 'NONE',  ( 0.0000000000000000000, 0.0000000000000000000, 0.1250000000000000000 ) ) ;
#64 = AXIS2_PLACEMENT_3D ( 'NONE', #180, #223, #24 ) ;
#65 = FACE_BOUND ( 'NONE', #83, .T. ) ;
#66 = APPLICATION_CONTEXT ( 'automotive_design' ) ;
#67 = LENGTH_MEASURE_WITH_UNIT ( LENGTH_MEASURE( 0.02539999999999999900 ), #206 );
#68 = AXIS2_PLACEMENT_3D ( 'NONE', #42, #60, #101 ) ;
#69 = ORIENTED_EDGE ( 'NONE', *, *, #91, .F. ) ;
#70 = APPLICATION_CONTEXT ( 'automotive_design' ) ;
#71 = DIRECTION ( 'NONE',  ( 0.0000000000000000000, 0.0000000000000000000, -1.000000000000000000 ) ) ;
#72 = DIRECTION ( 'NONE',  ( 0.0000000000000000000, 0.0000000000000000000, -1.000000000000000000 ) ) ;
#73 = ORIENTED_EDGE ( 'NONE', *, *, #146, .T. ) ;
#74 = LENGTH_MEASURE_WITH_UNIT ( LENGTH_MEASURE( 0.02539999999999999900 ), #76 );
#75 =( CONVERSION_BASED_UNIT ( 'INCH', #67 ) LENGTH_UNIT ( ) NAMED_UNIT ( #147 ) );
#76 =( LENGTH_UNIT ( ) NAMED_UNIT ( * ) SI_UNIT ( $, .METRE. ) );
#77 = EDGE_CURVE ( 'NONE', #41, #131, #193, .T. ) ;
#78 = PRODUCT ( 'am-0701a 6IN HD Roller Axle REV3', 'am-0701a 6IN HD Roller Axle REV3', '', ( #45 ) ) ;
#79 = DIRECTION ( 'NONE',  ( 0.0000000000000000000, 0.0000000000000000000, -1.000000000000000000 ) ) ;
#80 = DIRECTION ( 'NONE',  ( -1.000000000000000000, -0.0000000000000000000, -0.0000000000000000000 ) ) ;
#81 = DIRECTION ( 'NONE',  ( 0.0000000000000000000, 0.0000000000000000000, -1.000000000000000000 ) ) ;
#82 = PRESENTATION_LAYER_ASSIGNMENT (  '', '', ( #222 ) ) ;
#83 = EDGE_LOOP ( 'NONE', ( #47, #69 ) ) ;
#84 = ADVANCED_FACE ( 'NONE', ( #59 ), #92, .F. ) ;
#85 = CARTESIAN_POINT ( 'NONE',  ( 1.746000000000000000, 0.0000000000000000000, 0.0000000000000000000 ) ) ;
#86 = VERTEX_POINT ( 'NONE', #144 ) ;
#87 = ORIENTED_EDGE ( 'NONE', *, *, #77, .F. ) ;
#88 = CARTESIAN_POINT ( 'NONE',  ( 1.746000000000000000, 1.530808498934191500E-017, -0.1250000000000000000 ) ) ;
#89 = ORIENTED_EDGE ( 'NONE', *, *, #177, .T. ) ;
#90 = PRESENTATION_STYLE_ASSIGNMENT (( #161 ) ) ;
#91 = EDGE_CURVE ( 'NONE', #94, #108, #208, .T. ) ;
#92 = CYLINDRICAL_SURFACE ( 'NONE', #182, 0.09600000000000000200 ) ;
#93 = CYLINDRICAL_SURFACE ( 'NONE', #68, 0.09600000000000000200 ) ;
#94 = VERTEX_POINT ( 'NONE', #130 ) ;
#95 = CARTESIAN_POINT ( 'NONE',  ( 1.746000000000000000, 0.0000000000000000000, 0.0000000000000000000 ) ) ;
#96 = ORIENTED_EDGE ( 'NONE', *, *, #127, .T. ) ;
#97 =( NAMED_UNIT ( * ) SI_UNIT ( $, .STERADIAN. ) SOLID_ANGLE_UNIT ( ) );
#98 = CIRCLE ( 'NONE', #129, 0.09600000000000000200 ) ;
#99 = ADVANCED_FACE ( 'NONE', ( #25 ), #56, .T. ) ;
#100 = AXIS2_PLACEMENT_3D ( 'NONE', #20, #125, #79 ) ;
#101 = DIRECTION ( 'NONE',  ( 0.0000000000000000000, 0.0000000000000000000, 1.000000000000000000 ) ) ;
#102 = CIRCLE ( 'NONE', #64, 0.09600000000000000200 ) ;
#103 = CARTESIAN_POINT ( 'NONE',  ( 0.0000000000000000000, 0.0000000000000000000, 0.0000000000000000000 ) ) ;
#104 = EDGE_LOOP ( 'NONE', ( #23, #122, #19, #155 ) ) ;
#105 =( GEOMETRIC_REPRESENTATION_CONTEXT ( 3 ) GLOBAL_UNCERTAINTY_ASSIGNED_CONTEXT ( ( #212 ) ) GLOBAL_UNIT_ASSIGNED_CONTEXT ( ( #75, #109, #50 ) ) REPRESENTATION_CONTEXT ( 'NONE', 'WORKASPACE' ) );
#106 = CIRCLE ( 'NONE', #218, 0.1250000000000000000 ) ;
#107 = MECHANICAL_DESIGN_GEOMETRIC_PRESENTATION_REPRESENTATION (  '', ( #132 ), #105 ) ;
#108 = VERTEX_POINT ( 'NONE', #209 ) ;
#109 =( NAMED_UNIT ( * ) PLANE_ANGLE_UNIT ( ) SI_UNIT ( $, .RADIAN. ) );
#110 =( NAMED_UNIT ( * ) PLANE_ANGLE_UNIT ( ) SI_UNIT ( $, .RADIAN. ) );
#111 = LINE ( 'NONE', #33, #46 ) ;
#112 = FILL_AREA_STYLE ('',( #61 ) ) ;
#113 = SURFACE_STYLE_USAGE ( .BOTH. , #143 ) ;
#114 =( GEOMETRIC_REPRESENTATION_CONTEXT ( 3 ) GLOBAL_UNCERTAINTY_ASSIGNED_CONTEXT ( ( #49 ) ) GLOBAL_UNIT_ASSIGNED_CONTEXT ( ( #142, #110, #97 ) ) REPRESENTATION_CONTEXT ( 'NONE', 'WORKASPACE' ) );
#115 = DIMENSIONAL_EXPONENTS ( 1.000000000000000000, 0.0000000000000000000, 0.0000000000000000000, 0.0000000000000000000, 0.0000000000000000000, 0.0000000000000000000, 0.0000000000000000000 ) ;
#116 = CARTESIAN_POINT ( 'NONE',  ( 1.746000000000000000, 0.0000000000000000000, 0.0000000000000000000 ) ) ;
#117 = MANIFOLD_SOLID_BREP ( 'Boss-Extrude1', #54 ) ;
#118 = CARTESIAN_POINT ( 'NONE',  ( 0.0000000000000000000, 0.0000000000000000000, 0.0000000000000000000 ) ) ;
#119 = DIRECTION ( 'NONE',  ( -1.000000000000000000, -0.0000000000000000000, -0.0000000000000000000 ) ) ;
#120 = DIRECTION ( 'NONE',  ( 1.000000000000000000, 0.0000000000000000000, 0.0000000000000000000 ) ) ;
#121 = EDGE_LOOP ( 'NONE', ( #87, #51, #3, #173 ) ) ;
#122 = ORIENTED_EDGE ( 'NONE', *, *, #91, .T. ) ;
#123 = ORIENTED_EDGE ( 'NONE', *, *, #17, .F. ) ;
#124 = EDGE_LOOP ( 'NONE', ( #189, #166 ) ) ;
#125 = DIRECTION ( 'NONE',  ( 1.000000000000000000, 0.0000000000000000000, 0.0000000000000000000 ) ) ;
#126 = ORIENTED_EDGE ( 'NONE', *, *, #149, .F. ) ;
#127 = EDGE_CURVE ( 'NONE', #41, #86, #198, .T. ) ;
#128 = FACE_OUTER_BOUND ( 'NONE', #43, .T. ) ;
#129 = AXIS2_PLACEMENT_3D ( 'NONE', #103, #48, #188 ) ;
#130 = CARTESIAN_POINT ( 'NONE',  ( 1.746000000000000000, 1.175660927181458900E-017, -0.09600000000000000200 ) ) ;
#131 = VERTEX_POINT ( 'NONE', #58 ) ;
#132 = STYLED_ITEM ( 'NONE', ( #90 ), #148 ) ;
#133 = DIRECTION ( 'NONE',  ( 0.0000000000000000000, 0.0000000000000000000, 1.000000000000000000 ) ) ;
#134 = ORIENTED_EDGE ( 'NONE', *, *, #127, .F. ) ;
#135 = FACE_BOUND ( 'NONE', #124, .T. ) ;
#136 =( CONVERSION_BASED_UNIT ( 'INCH', #138 ) LENGTH_UNIT ( ) NAMED_UNIT ( #184 ) );
#137 = DIRECTION ( 'NONE',  ( 0.0000000000000000000, 0.0000000000000000000, -1.000000000000000000 ) ) ;
#138 = LENGTH_MEASURE_WITH_UNIT ( LENGTH_MEASURE( 0.02539999999999999900 ), #13 );
#139 = MECHANICAL_DESIGN_GEOMETRIC_PRESENTATION_REPRESENTATION (  '', ( #222 ), #114 ) ;
#140 =( NAMED_UNIT ( * ) PLANE_ANGLE_UNIT ( ) SI_UNIT ( $, .RADIAN. ) );
#141 = COLOUR_RGB ( '',0.6470588235294118000, 0.5176470588235293500, 0.0000000000000000000 ) ;
#142 =( CONVERSION_BASED_UNIT ( 'INCH', #74 ) LENGTH_UNIT ( ) NAMED_UNIT ( #115 ) );
#143 = SURFACE_SIDE_STYLE ('',( #35 ) ) ;
#144 = CARTESIAN_POINT ( 'NONE',  ( 1.746000000000000000, 0.0000000000000000000, 0.1250000000000000000 ) ) ;
#145 = CIRCLE ( 'NONE', #172, 0.1250000000000000000 ) ;
#146 = EDGE_CURVE ( 'NONE', #86, #41, #27, .T. ) ;
#147 = DIMENSIONAL_EXPONENTS ( 1.000000000000000000, 0.0000000000000000000, 0.0000000000000000000, 0.0000000000000000000, 0.0000000000000000000, 0.0000000000000000000, 0.0000000000000000000 ) ;
#148 = ADVANCED_BREP_SHAPE_REPRESENTATION ( 'am-0701a 6IN HD Roller Axle REV3', ( #117, #196 ), #199 ) ;
#149 = EDGE_CURVE ( 'NONE', #26, #210, #102, .T. ) ;
#150 = ADVANCED_FACE ( 'NONE', ( #128, #135 ), #22, .F. ) ;
#151 = AXIS2_PLACEMENT_3D ( 'NONE', #187, #119, #133 ) ;
#152 = DIRECTION ( 'NONE',  ( 0.0000000000000000000, 0.0000000000000000000, 1.000000000000000000 ) ) ;
#153 = ORIENTED_EDGE ( 'NONE', *, *, #179, .T. ) ;
#154 = CARTESIAN_POINT ( 'NONE',  ( 1.746000000000000000, 0.0000000000000000000, 0.0000000000000000000 ) ) ;
#155 = ORIENTED_EDGE ( 'NONE', *, *, #38, .F. ) ;
#156 = DIRECTION ( 'NONE',  ( 1.000000000000000000, 0.0000000000000000000, 0.0000000000000000000 ) ) ;
#157 =( NAMED_UNIT ( * ) SI_UNIT ( $, .STERADIAN. ) SOLID_ANGLE_UNIT ( ) );
#158 = FACE_OUTER_BOUND ( 'NONE', #104, .T. ) ;
#159 = PRODUCT_DEFINITION_SHAPE ( 'NONE', 'NONE',  #36 ) ;
#160 = SURFACE_STYLE_FILL_AREA ( #29 ) ;
#161 = SURFACE_STYLE_USAGE ( .BOTH. , #18 ) ;
#162 = FACE_OUTER_BOUND ( 'NONE', #55, .T. ) ;
#163 = DIRECTION ( 'NONE',  ( 1.000000000000000000, 0.0000000000000000000, 0.0000000000000000000 ) ) ;
#164 = DIRECTION ( 'NONE',  ( -1.000000000000000000, -0.0000000000000000000, -0.0000000000000000000 ) ) ;
#165 = SHAPE_DEFINITION_REPRESENTATION ( #159, #148 ) ;
#166 = ORIENTED_EDGE ( 'NONE', *, *, #38, .T. ) ;
#167 = CARTESIAN_POINT ( 'NONE',  ( 1.746000000000000000, 0.0000000000000000000, 0.09600000000000000200 ) ) ;
#168 = EDGE_LOOP ( 'NONE', ( #89, #4, #126, #178 ) ) ;
#169 = PRODUCT_DEFINITION_CONTEXT ( 'detailed design', #66, 'design' ) ;
#170 = ADVANCED_FACE ( 'NONE', ( #158 ), #93, .F. ) ;
#171 = LINE ( 'NONE', #21, #31 ) ;
#172 = AXIS2_PLACEMENT_3D ( 'NONE', #118, #163, #71 ) ;
#173 = ORIENTED_EDGE ( 'NONE', *, *, #1, .T. ) ;
#174 = ORIENTED_EDGE ( 'NONE', *, *, #77, .T. ) ;
#175 = CARTESIAN_POINT ( 'NONE',  ( 1.746000000000000000, 0.0000000000000000000, 0.0000000000000000000 ) ) ;
#176 = DIRECTION ( 'NONE',  ( -1.000000000000000000, -0.0000000000000000000, -0.0000000000000000000 ) ) ;
#177 = EDGE_CURVE ( 'NONE', #108, #94, #62, .T. ) ;
#178 = ORIENTED_EDGE ( 'NONE', *, *, #57, .F. ) ;
#179 = EDGE_CURVE ( 'NONE', #131, #211, #106, .T. ) ;
#180 = CARTESIAN_POINT ( 'NONE',  ( 0.0000000000000000000, 0.0000000000000000000, 0.0000000000000000000 ) ) ;
#181 = APPLICATION_PROTOCOL_DEFINITION ( 'draft international standard', 'automotive_design', 1998, #66 ) ;
#182 = AXIS2_PLACEMENT_3D ( 'NONE', #154, #164, #152 ) ;
#183 = LINE ( 'NONE', #167, #5 ) ;
#184 = DIMENSIONAL_EXPONENTS ( 1.000000000000000000, 0.0000000000000000000, 0.0000000000000000000, 0.0000000000000000000, 0.0000000000000000000, 0.0000000000000000000, 0.0000000000000000000 ) ;
#185 = CARTESIAN_POINT ( 'NONE',  ( 1.746000000000000000, 0.0000000000000000000, 0.0000000000000000000 ) ) ;
#186 = DIRECTION ( 'NONE',  ( 1.000000000000000000, 0.0000000000000000000, 0.0000000000000000000 ) ) ;
#187 = CARTESIAN_POINT ( 'NONE',  ( 1.746000000000000000, 0.0000000000000000000, 0.0000000000000000000 ) ) ;
#188 = DIRECTION ( 'NONE',  ( 0.0000000000000000000, 0.0000000000000000000, -1.000000000000000000 ) ) ;
#189 = ORIENTED_EDGE ( 'NONE', *, *, #149, .T. ) ;
#190 = CARTESIAN_POINT ( 'NONE',  ( 0.0000000000000000000, 0.0000000000000000000, 0.0000000000000000000 ) ) ;
#191 = ORIENTED_EDGE ( 'NONE', *, *, #1, .F. ) ;
#192 = CARTESIAN_POINT ( 'NONE',  ( 0.0000000000000000000, 0.0000000000000000000, 0.09600000000000000200 ) ) ;
#193 = LINE ( 'NONE', #201, #2 ) ;
#194 = UNCERTAINTY_MEASURE_WITH_UNIT (LENGTH_MEASURE( 1.000000000000000100E-005 ), #136, 'distance_accuracy_value', 'NONE');
#195 = AXIS2_PLACEMENT_3D ( 'NONE', #116, #197, #11 ) ;
#196 = AXIS2_PLACEMENT_3D ( 'NONE', #219, #203, #15 ) ;
#197 = DIRECTION ( 'NONE',  ( 1.000000000000000000, 0.0000000000000000000, 0.0000000000000000000 ) ) ;
#198 = CIRCLE ( 'NONE', #34, 0.1250000000000000000 ) ;
#199 =( GEOMETRIC_REPRESENTATION_CONTEXT ( 3 ) GLOBAL_UNCERTAINTY_ASSIGNED_CONTEXT ( ( #194 ) ) GLOBAL_UNIT_ASSIGNED_CONTEXT ( ( #136, #140, #157 ) ) REPRESENTATION_CONTEXT ( 'NONE', 'WORKASPACE' ) );
#200 = EDGE_LOOP ( 'NONE', ( #134, #174, #153, #123 ) ) ;
#201 = CARTESIAN_POINT ( 'NONE',  ( 1.746000000000000000, 1.530808498934191500E-017, -0.1250000000000000000 ) ) ;
#202 = CARTESIAN_POINT ( 'NONE',  ( 1.746000000000000000, 0.0000000000000000000, 0.0000000000000000000 ) ) ;
#203 = DIRECTION ( 'NONE',  ( 0.0000000000000000000, 0.0000000000000000000, 1.000000000000000000 ) ) ;
#204 = DIRECTION ( 'NONE',  ( -1.000000000000000000, -0.0000000000000000000, -0.0000000000000000000 ) ) ;
#205 = CARTESIAN_POINT ( 'NONE',  ( 0.0000000000000000000, 1.175660927181458900E-017, -0.09600000000000000200 ) ) ;
#206 =( LENGTH_UNIT ( ) NAMED_UNIT ( * ) SI_UNIT ( $, .METRE. ) );
#207 = PRODUCT_RELATED_PRODUCT_CATEGORY ( 'part', '', ( #78 ) ) ;
#208 = CIRCLE ( 'NONE', #215, 0.09600000000000000200 ) ;
#209 = CARTESIAN_POINT ( 'NONE',  ( 1.746000000000000000, 0.0000000000000000000, 0.09600000000000000200 ) ) ;
#210 = VERTEX_POINT ( 'NONE', #205 ) ;
#211 = VERTEX_POINT ( 'NONE', #63 ) ;
#212 = UNCERTAINTY_MEASURE_WITH_UNIT (LENGTH_MEASURE( 1.000000000000000100E-005 ), #75, 'distance_accuracy_value', 'NONE');
#213 = APPLICATION_PROTOCOL_DEFINITION ( 'draft international standard', 'automotive_design', 1998, #70 ) ;
#214 = FILL_AREA_STYLE_COLOUR ( '', #10 ) ;
#215 = AXIS2_PLACEMENT_3D ( 'NONE', #175, #156, #137 ) ;
#216 = DIRECTION ( 'NONE',  ( -1.000000000000000000, -0.0000000000000000000, -0.0000000000000000000 ) ) ;
#217 = DIRECTION ( 'NONE',  ( 0.0000000000000000000, 0.0000000000000000000, -1.000000000000000000 ) ) ;
#218 = AXIS2_PLACEMENT_3D ( 'NONE', #190, #186, #72 ) ;
#219 = CARTESIAN_POINT ( 'NONE',  ( 0.0000000000000000000, 0.0000000000000000000, 0.0000000000000000000 ) ) ;
#220 = PRESENTATION_STYLE_ASSIGNMENT (( #113 ) ) ;
#221 = FACE_OUTER_BOUND ( 'NONE', #200, .T. ) ;
#222 = STYLED_ITEM ( 'NONE', ( #220 ), #117 ) ;
#223 = DIRECTION ( 'NONE',  ( 1.000000000000000000, 0.0000000000000000000, 0.0000000000000000000 ) ) ;
ENDSEC;
END-ISO-10303-21;
